RejestracjaSzukajStatystykiZaloguj



Odpowiedz do tematu
Poprzedni temat :: Następny temat
Przesunięty przez: Gosha
06-07-06, 19:55
Chwyty gitarowe do piosenek TR
Autor Wiadomość
Rosi
[Usunięty]

Wysłany: 10-06-06, 21:59   Chwyty gitarowe do piosenek TR

hej, wpadłam na pomysł zeby stworzyc temat, wktorym bedzie mozna dzielic sie chwytami do piosenek TR, ucze sie grac na gitarze i nie moge znalezc chwytów do ich niektórych piosenek; zalezy mi na In the shadows(szczególnie na wstepie)
na poczatek zaserwuje wam Sail away:
intro: a e a e

zwrotka: a e a e a D

refren: e D C G
e G C D
e D C G
e G C D

no to tyle, mam nadzieje, ze ktos mi pomoze i ze temat nie bedzie uznany za głupi
Ostatnio zmieniony przez 08-07-06, 00:10, w całości zmieniany 1 raz  
 
     
sayuri77
[Usunięty]

Wysłany: 10-06-06, 22:33   

in the shadows:

1 zwrotka h - fis x4
D - fis - h - fis x2

ref.: D - fis - h - fis

2 zw. h - fis x4
D - fis - h - fis x2

ref.: D - fis - h- fis
D - fis - h - fis - E

Latley l've been ... - D - E - fis - A
h - E - fis

ref.: h - fis x4
D - fis - h - fis x2






shot

zw. h - cis - Fis x2
h - A - G - Fis x2

ref. h - cis - Fis - e - Fis - h






not like the other girl

zwrotka:

e
e
C
e

przejscie:

C G D
C G
C G
D
C H E

refren:

e C D G H /x2



NO FEAR

zw. gis - Dis - E - H - cis - Dis - gis

ref. gis - E - H - Fis (E)

podczas solówki zmiana tonacji:

b - Fis - Cis - Gis
 
     
sayuri77
[Usunięty]

Wysłany: 11-06-06, 10:38   

Cytat:
a ma moze ktos chwyty do Liquid :ic20:

do tego sama próbowałam ustalić...
ale nie do końcaa wyszło...
poszukam może uda mi się znaleźć...

[ Dodano: 11-06-06, 12:56 ]
no to macie liquida



Am D
I go liquid when you come around
Hm C
and I know
Am D
I go solid but don’t get me wrong
Hm Em
yes I go

Am D
I love to watch you when you mess around
Hm C
with my mind
Am D
I’m pathetic but only this time
Hm Em
but who knows...


Interlude: (0:46) (strike each chord 8x down)
C Eb
And I say…


Chorus: (0:52) (with distortion)
G Em
It’s no more a secret
G Em
go solid go liquid, oh me
D G
If it’s the love that we live for how come I didn’t know
A5 D5
Show me an easy way out
A5 D5
Show me an easy way out


Verse: (1:22) (use an acoustic sound)
Am D
Forget the love ‘n go back to the line
Hm C
with yourself
Am D
Try to accept the place where you belong
Hm Em
you belong

Am D
I love to teach you though you already know
Hm C
but this time
Am D
Stay in touch if you’re planning to go
Hm Em
below…


Interlude: (2:05) (strike each chord 8x down)
C Eb
And I say…


Chorus: (2:11) (with distortion)
G Em
It’s no more a secret
G Em
go solid go liquid, oh me
D G
If it’s the love that we live for how come I didn’t know
A5 D5
Show me an easy way out
A5 D5
Show me an easy way out


Solo: (2:38) (use an acoustic sound)
Dm G Em Am
Dm G Em Hm


Interlude: (3:00) (strike each chord 8x down)
C Eb
And I say…


Chorus: (3:05) (with distortion)
G Em
It’s no more a secret
G Em
go solid go liquid, oh me
D G
If it’s the love that we live for how come I didn’t know
A5 D5
Show me an easy way out
A5 D5
Show me an easy way out


And I say…
G Em
It’s no more a secret
G Em
go solid go liquid, oh me
D G
If it’s the love that we live for how come I didn’t know
A5 D5
Show me an easy way out
A5 D5
Show me an easy way out


Outro: (4:00)
A5 D5
Show me an easy way out
A5
Show me an easy way out

 
     
sayuri77
[Usunięty]

Wysłany: 11-06-06, 13:53   

spoko ;D
jak będe miała więcej czasu zarzuce więcej chwytów...
bo gdzieś do rakkauslaulu miałam... ale nie pamiętam gdzie...
poszukam ;)

[ Dodano: 11-06-06, 16:00 ]
RAKKAUSLAULU

Verse 1:
G C
Et oo koskaan sanonut mulle rakas (raakaas..)
G D
Et oo koskaan sanonut että sä välität (vääliitäät...)
G C
Sä tiedät että mä tykkään susta (minä tykkään sinustaa-aa...)
G D G
Ja että ihan millon vaan sä luokseni tulla saat

G
Pom Pom Pom

Chorus:
C D G
Mä luulin löytäneeni oman mussukan
C D G
Sulle korvaan kuiskasin: "Hei Rakkaimpain."
C D G
Sä sanoit mulle: "Hei Pauri ystäväin.."
C D G
Katsoit silmiin ja näytit näin
 
     
Fatal_Girl
[Usunięty]

Wysłany: 11-06-06, 14:43   

na tej stronce macie wiele piosenek TR
http://www.ultimate-guita...rasmus_tabs.htm

aha chcę zaznaczyć że niektóre akordy nie są dokońca dobre... czasami nie pasuje np. jeden chwyt... :] no to tyle :] życzę miłego grania :D
 
     
Rosi
[Usunięty]

Wysłany: 18-06-06, 07:23   

http://www.chords.pl/wakacjezqitara
na tej stronce jest(chyba) wszystko opisane, trochę pomaga w nauce gry na gitarze, ale trzeba się zarejestrować
 
     
Mary
[Usunięty]

Wysłany: 02-08-06, 09:23   

http://www.youtube.com/watch?v=3WdRTCQsAQ0
http://www.youtube.com/watch?v=vonCKQCSbIE
tutaj mamy pana,który jest bardzo miły i nam zagrał Don't let go i Sail Away..
hym..chcialabym się tego nauczyć, tylko do cholery skąd on ma dobre taby i chwyty ?
ktoś chciałby się pobawić i mi napisać co i jak ? :k05:
 
     
Mary
[Usunięty]

Wysłany: 16-08-06, 12:39   

~Gu!lty G!rl~ napisał/a:
a moze ma ktos nuty do Peep??

nuty? omg..ja nie mam..
jakbym znala nuty i jakbym grala z nut to bym ci jakos dala, bym poszukala i te pe..ale nie umiem to nie dam..buu :(

ja wogule nie moge nigdzie znalezc jak wyglądają chwyty np :
sayuri77 napisał/a:
A5 D5

wiec prosilabym,zeby jakos od razu pisac jak wyglądają..z góry dzięki, bo mi zmiejszycie czas szukania tego wszystkiego ;)

[ Dodano: 16-08-06, 14:43 ]
nie wiem jak wam, ale wedlug mnie to te są najlepszxe taby do początku ITS..
e--------------------------------------------------------------------------
b--------------------------------------------------------------------------
g--------------------------------------------------------------------------
d--------------------------------------------------------------------------
a-5-5-5-4-5-4-0----------------0-2--4--5-4-5-4-0---------------------
e-----------------2-2-2-0-0-2----------------------2-2-4-4-5-----------

zagrałam oprzed chwulą te, które podałaś ty, ~Gu!lty G!rl~, ale one mi za bardzo nie pasowaly,wiec musialam te wcisnac ;) :k05:
 
     
mentoska
[Usunięty]

Wysłany: 23-08-06, 10:52   

O jak dobrze, że jest taki temat :D Ja niedawno zaczęłam się uczyć grać...a wy już umiecie? Na razie ciężko przychodzi mi coś zagrać :P
A to wstęp do Chilla..bardzo prosty :)
e-------------------------------------------------------------------------------------|
b-------------------------------------------------------------------------------------|
g---------------7--------4-----------------7-----4--------------------4---------------|
d---5--4--5-------------------5--4--5---------------------------7------4--5-----------|
a-------------------------------------------------------5--4--5-----------------------|
E-------------------------------------------------------------------------------------|

Btw. moim zdaniem ten ost. wstęp do INS bardziej pasuje ;]
 
     
'VLADIUS'
[Usunięty]

Wysłany: 24-08-06, 08:51   

rasmuseczka napisał/a:
a ma ktos moze chwyty do początku No Fear?


moze to ;)

e|--------------------------------------------------------------------------------|
B|-16-----16-----16----16-----16-----16----16-----19-----19----19-----19-----19---|
G|---17-----17-----17----13-----13-----14----15-----15-----15----16-----16-----16-|
D|-----18-----18-----------14-----14-----------16-----16-----------16-----16------|
A|--------------------------------------------------------------------------------|
E|--------------------------------------------------------------------------------|

P.S a mógłby mi ktos powiedziec jak wygląda chwyt DE :k05: bo ja nigdzie nie moge znalezc :P
Ostatnio zmieniony przez 25-08-06, 21:47, w całości zmieniany 1 raz  
 
     
'VLADIUS'
[Usunięty]

Wysłany: 25-08-06, 18:47   

mentoska napisał/a:
Ale tak w ogóle to do czego jest ten program?

hmm..... to jest taki program w którym masz takie cos ;)
e|---------------------------------------------------------------------------|
B|---------------------------------------------------------------------------|
G|---------------------------------------------------------------------------|
D|---------------------------------------------------------------------------|
A|--------333333333--------444444444--------333333333----3-3-0------4-4-1----|
D|-333333-----------111111-----------333333-----------111-1-1----333-3-3----|
i program Ci to gra a ty z nim ;) ......... ja sie tak ucze i narazie mnie ten program nie zawodzi ....... dobrze rytm wyrabia ;)
 
     
Mary
[Usunięty]

Wysłany: 28-08-06, 10:09   

to są dwa podstawowe chwyty, więc dziwie się,że ich nie znasz xD

D

E|-----|-x--|-----|
H|-----|-----|-x--|
G|-----|-x--|-----|
D|-----|-----|-----|
A|-----|-----|-----|
E|-----|-----|-----|

E

E|-----|-----|-----|
H|-----|-----|-----|
G|-x--|-----|-----|
D|-----|-x--|-----|
A|-----|-x--|-----|
E|-----|-----|-----|

mam nadzieję,że pomogłam ^^


końcówka Immortal (jest na bank dobra, bo jak sama gram, to słysze że dobra :k05: )

|-------15-------15-------------13------13------------|
|----11----11-------11-------11----11------11-------|
|-12----------12-------12-12---------12-------12----|
|--------------------------------------------------------|
|--------------------------------------------------------|
|--------------------------------------------------------|

|-------13-------13-------------11------11------------|
|----11----11-------11-------11----11------11-------|
|-10----------10-------10-10----------10------10----|
|--------------------------------------------------------|
|--------------------------------------------------------|
|--------------------------------------------------------|

|-------10-------10-------------10-------11-----------|
|----11----11-------11-------11----11-------11------|
|-10----------10-------10-10----------10-------10---|
|--------------------------------------------------------|
|--------------------------------------------------------|
|--------------------------------------------------------|

|-------8-------8--------------8------8----------------|
|----11---11------11------10---10-----10------------|
|-10---------10------10-7---------7------7-----------|
|--------------------------------------------------------|
|--------------------------------------------------------|
|--------------------------------------------------------|

enjoy ;)
Ostatnio zmieniony przez Mary 28-08-06, 11:47, w całości zmieniany 1 raz  
 
     
'VLADIUS'
[Usunięty]

Wysłany: 28-08-06, 11:34   

te chwyty akurat znam ;) ale i tak dzieki ;)

z Immortal to bede mógł zagrac tylko to:
|-------10-------10-------------10-------11-----------|
|----11----11-------11-------11----11-------11------|
|-10----------10-------10-10----------10-------10---|
|--------------------------------------------------------|
|--------------------------------------------------------|
|--------------------------------------------------------|

|-------8-------8------------8------8------------------|
|----11---11------11------10---10-----10------------|
|-10---------10------10-7---------7------7-----------|
|--------------------------------------------------------|
|--------------------------------------------------------|
|--------------------------------------------------------|
bo gryf mam za mały :k01: a dzwięków mi sie nie chce szukac :k01:
 
     
'VLADIUS'
[Usunięty]

Wysłany: 30-08-06, 10:55   

ta czesc Ci fajnie wyszła ;)
E- - - - - - - - - - - - - - - - - - - - - -
H- -6-7-8 - - - - - - - - - 6-7-8- - - -
G- - - - - - -6-6- -6- - - - - - - -6-6--
D- - - - - - - - - - - - - - - - - - - - - - 2x
A- - - - - - - - - - - - - - - - - - - - - -
E- - - - - - - - - - - - - - - - - - - - - -

E- - - - - - - 0-0- -0- - - -- - - - 0-0- - - -
H- 10-9-10 - - - - - - - -10-9-10 - - - - - -
G- - - - - - - - - - - - - - - - - - - - - - - - - -
D- - - - - - - - - - - - - - - - - - - - - - - - - - 2x
A- - - - - - - - - - - - - - - - - - - - - - - - - -
E- - - - - - - - - - - - - - - - - - - - - - - - - -

E- -9-7-9-10-10- - - - -9-7-9-10-10- -10- -
H- - - - - - - - - -9-10 - - - - - - - - - - - - - -
G- - - - - - - - - - - - - - - - - - - - - - - - - - -
D- - - - - - - - - - - - - - - - - - - - - - - - - - - 2x
A- - - - - - - - - - - - - - - - - - - - - - - - - - -
E- - - - - - - - - - - - - - - - - - - - - - -- - - - -
 
     
Smash
[Usunięty]

Wysłany: 31-08-06, 20:14   

http://www.ultimate-guita...rasmus_tabs.htm tu macie troche tego xP
 
     
Wyświetl posty z ostatnich:   
Odpowiedz do tematu
Nie możesz pisać nowych tematów
Nie możesz odpowiadać w tematach
Nie możesz zmieniać swoich postów
Nie możesz usuwać swoich postów
Nie możesz głosować w ankietach
Nie możesz załączać plików na tym forum
Nie możesz ściągać załączników na tym forum
Dodaj temat do Ulubionych
Wersja do druku

Skocz do:  

Powered by phpBB modified by Przemo © 2003 phpBB Group




Strona wygenerowana w 0,15 sekundy. Zapytań do SQL: 17